  0
SECTION
  2
HEADER
  9
$ACADVER
  1
AC1015
  9
$ACADMAINTVER
 70
     6
  9
$DWGCODEPAGE
  3
ANSI_1254
  9
$INSBASE
 10
0.0
 20
0.0
 30
0.0
  9
$EXTMIN
 10
0.0
 20
0.0
 30
0.0
  9
$EXTMAX
 10
279.4
 20
215.9
 30
0.0
  9
$LIMMIN
 10
0.0
 20
0.0
  9
$LIMMAX
 10
279.4
 20
215.9
  9
$ORTHOMODE
 70
     0
  9
$REGENMODE
 70
     1
  9
$FILLMODE
 70
     1
  9
$QTEXTMODE
 70
     0
  9
$MIRRTEXT
 70
     1
  9
$LTSCALE
 40
1.0
  9
$ATTMODE
 70
     1
  9
$TEXTSIZE
 40
3.5
  9
$TRACEWID
 40
1.0
  9
$TEXTSTYLE
  7
Standard
  9
$CLAYER
  8
0
  9
$CELTYPE
  6
ByLayer
  9
$CECOLOR
 62
   256
  9
$CELTSCALE
 40
1.0
  9
$DISPSILH
 70
     0
  9
$DIMSCALE
 40
1.0
  9
$DIMASZ
 40
3.5
  9
$DIMEXO
 40
1.0
  9
$DIMDLI
 40
3.75
  9
$DIMRND
 40
0.0
  9
$DIMDLE
 40
0.0
  9
$DIMEXE
 40
1.0
  9
$DIMTP
 40
0.0
  9
$DIMTM
 40
0.0
  9
$DIMTXT
 40
3.5
  9
$DIMCEN
 40
2.5
  9
$DIMTSZ
 40
0.0
  9
$DIMTOL
 70
     0
  9
$DIMLIM
 70
     0
  9
$DIMTIH
 70
     1
  9
$DIMTOH
 70
     1
  9
$DIMSE1
 70
     0
  9
$DIMSE2
 70
     0
  9
$DIMTAD
 70
     1
  9
$DIMZIN
 70
     0
  9
$DIMBLK
  1

  9
$DIMASO
 70
     1
  9
$DIMSHO
 70
     1
  9
$DIMPOST
  1

  9
$DIMAPOST
  1

  9
$DIMALT
 70
     0
  9
$DIMALTD
 70
     3
  9
$DIMALTF
 40
0.0393700787
  9
$DIMLFAC
 40
1.0
  9
$DIMTOFL
 70
     1
  9
$DIMTVP
 40
0.0
  9
$DIMTIX
 70
     0
  9
$DIMSOXD
 70
     0
  9
$DIMSAH
 70
     0
  9
$DIMBLK1
  1

  9
$DIMBLK2
  1

  9
$DIMSTYLE
  2
ISO-25
  9
$DIMCLRD
 70
     0
  9
$DIMCLRE
 70
     0
  9
$DIMCLRT
 70
     0
  9
$DIMTFAC
 40
1.0
  9
$DIMGAP
 40
1.524
  9
$DIMJUST
 70
     0
  9
$DIMSD1
 70
     0
  9
$DIMSD2
 70
     0
  9
$DIMTOLJ
 70
     0
  9
$DIMTZIN
 70
     0
  9
$DIMALTZ
 70
     0
  9
$DIMALTTZ
 70
     0
  9
$DIMUPT
 70
     0
  9
$DIMDEC
 70
     2
  9
$DIMTDEC
 70
     2
  9
$DIMALTU
 70
     2
  9
$DIMALTTD
 70
     3
  9
$DIMTXSTY
  7
Standard
  9
$DIMAUNIT
 70
     0
  9
$DIMADEC
 70
     2
  9
$DIMALTRND
 40
0.0
  9
$DIMAZIN
 70
     0
  9
$DIMDSEP
 70
    44
  9
$DIMATFIT
 70
     3
  9
$DIMFRAC
 70
     0
  9
$DIMLDRBLK
  1

  9
$DIMLUNIT
 70
     2
  9
$DIMLWD
 70
    -2
  9
$DIMLWE
 70
    -2
  9
$DIMTMOVE
 70
     0
  9
$LUNITS
 70
     2
  9
$LUPREC
 70
     2
  9
$SKETCHINC
 40
1.0
  9
$FILLETRAD
 40
10.0
  9
$AUNITS
 70
     0
  9
$AUPREC
 70
     2
  9
$MENU
  1
.
  9
$ELEVATION
 40
0.0
  9
$PELEVATION
 40
0.0
  9
$THICKNESS
 40
0.0
  9
$LIMCHECK
 70
     0
  9
$CHAMFERA
 40
0.0
  9
$CHAMFERB
 40
0.0
  9
$CHAMFERC
 40
0.0
  9
$CHAMFERD
 40
0.0
  9
$SKPOLY
 70
     0
  9
$TDCREATE
 40
2459935.699844386
  9
$TDUCREATE
 40
2459935.574844386
  9
$TDUPDATE
 40
2459935.699844572
  9
$TDUUPDATE
 40
2459935.574844572
  9
$TDINDWG
 40
0.0000000116
  9
$TDUSRTIMER
 40
0.0000000116
  9
$USRTIMER
 70
     1
  9
$ANGBASE
 50
0.0
  9
$ANGDIR
 70
     0
  9
$PDMODE
 70
     0
  9
$PDSIZE
 40
-1.0
  9
$PLINEWID
 40
0.0
  9
$SPLFRAME
 70
     0
  9
$SPLINETYPE
 70
     6
  9
$SPLINESEGS
 70
     8
  9
$HANDSEED
  5
ED
  9
$SURFTAB1
 70
     6
  9
$SURFTAB2
 70
     6
  9
$SURFTYPE
 70
     6
  9
$SURFU
 70
     6
  9
$SURFV
 70
     6
  9
$UCSBASE
  2

  9
$UCSNAME
  2

  9
$UCSORG
 10
0.0
 20
0.0
 30
0.0
  9
$UCSXDIR
 10
1.0
 20
0.0
 30
0.0
  9
$UCSYDIR
 10
0.0
 20
1.0
 30
0.0
  9
$UCSORTHOREF
  2

  9
$UCSORTHOVIEW
 70
     0
  9
$UCSORGTOP
 10
0.0
 20
0.0
 30
0.0
  9
$UCSORGBOTTOM
 10
0.0
 20
0.0
 30
0.0
  9
$UCSORGLEFT
 10
0.0
 20
0.0
 30
0.0
  9
$UCSORGRIGHT
 10
0.0
 20
0.0
 30
0.0
  9
$UCSORGFRONT
 10
0.0
 20
0.0
 30
0.0
  9
$UCSORGBACK
 10
0.0
 20
0.0
 30
0.0
  9
$PUCSBASE
  2

  9
$PUCSNAME
  2

  9
$PUCSORG
 10
0.0
 20
0.0
 30
0.0
  9
$PUCSXDIR
 10
1.0
 20
0.0
 30
0.0
  9
$PUCSYDIR
 10
0.0
 20
1.0
 30
0.0
  9
$PUCSORTHOREF
  2

  9
$PUCSORTHOVIEW
 70
     0
  9
$PUCSORGTOP
 10
0.0
 20
0.0
 30
0.0
  9
$PUCSORGBOTTOM
 10
0.0
 20
0.0
 30
0.0
  9
$PUCSORGLEFT
 10
0.0
 20
0.0
 30
0.0
  9
$PUCSORGRIGHT
 10
0.0
 20
0.0
 30
0.0
  9
$PUCSORGFRONT
 10
0.0
 20
0.0
 30
0.0
  9
$PUCSORGBACK
 10
0.0
 20
0.0
 30
0.0
  9
$USERI1
 70
     0
  9
$USERI2
 70
     0
  9
$USERI3
 70
     0
  9
$USERI4
 70
     0
  9
$USERI5
 70
     0
  9
$USERR1
 40
0.0
  9
$USERR2
 40
0.0
  9
$USERR3
 40
0.0
  9
$USERR4
 40
0.0
  9
$USERR5
 40
0.0
  9
$WORLDVIEW
 70
     1
  9
$SHADEDGE
 70
     3
  9
$SHADEDIF
 70
    70
  9
$TILEMODE
 70
     1
  9
$MAXACTVP
 70
    64
  9
$PINSBASE
 10
0.0
 20
0.0
 30
0.0
  9
$PLIMCHECK
 70
     0
  9
$PEXTMIN
 10
1.0000000000E+20
 20
1.0000000000E+20
 30
1.0000000000E+20
  9
$PEXTMAX
 10
-1.0000000000E+20
 20
-1.0000000000E+20
 30
-1.0000000000E+20
  9
$PLIMMIN
 10
0.0
 20
0.0
  9
$PLIMMAX
 10
420.0
 20
297.0
  9
$UNITMODE
 70
     0
  9
$VISRETAIN
 70
     1
  9
$PLINEGEN
 70
     0
  9
$PSLTSCALE
 70
     1
  9
$TREEDEPTH
 70
  3020
  9
$CMLSTYLE
  2
Standard
  9
$CMLJUST
 70
     0
  9
$CMLSCALE
 40
20.0
  9
$PROXYGRAPHICS
 70
     1
  9
$MEASUREMENT
 70
     1
  9
$CELWEIGHT
370
    -1
  9
$ENDCAPS
280
     0
  9
$JOINSTYLE
280
     0
  9
$LWDISPLAY
290
     1
  9
$INSUNITS
 70
     4
  9
$HYPERLINKBASE
  1

  9
$STYLESHEET
  1

  9
$XEDIT
290
     1
  9
$CEPSNTYPE
380
     0
  9
$PSTYLEMODE
290
     1
  9
$FINGERPRINTGUID
  2
{2db2bc19-7b1b-487a-af61-455351f1221e}
  9
$VERSIONGUID
  2
{FAEB1C32-E019-11D5-929B-00C0DF256EC4}
  9
$EXTNAMES
290
     1
  9
$PSVPSCALE
 40
0.0
  9
$OLESTARTUP
290
     0
  0
ENDSEC
  0
SECTION
  2
CLASSES
  0
CLASS
  1
ACDBDICTIONARYWDFLT
  2
AcDbDictionaryWithDefault
  3
ObjectDBX Classes
 90
        0
280
     0
281
     0
  0
CLASS
  1
VISUALSTYLE
  2
AcDbVisualStyle
  3
ObjectDBX Classes
 90
     4095
280
     0
281
     0
  0
CLASS
  1
MATERIAL
  2
AcDbMaterial
  3
ObjectDBX Classes
 90
     1153
280
     0
281
     0
  0
CLASS
  1
SCALE
  2
AcDbScale
  3
ObjectDBX Classes
 90
     1153
280
     0
281
     0
  0
CLASS
  1
TABLESTYLE
  2
AcDbTableStyle
  3
ObjectDBX Classes
 90
     4095
280
     0
281
     0
  0
CLASS
  1
MLEADERSTYLE
  2
AcDbMLeaderStyle
  3
ACDB_MLEADERSTYLE_CLASS
 90
     4095
280
     0
281
     0
  0
CLASS
  1
SUN
  2
AcDbSun
  3
SCENEOE
 90
     1153
280
     0
281
     0
  0
CLASS
  1
ACDBPLACEHOLDER
  2
AcDbPlaceHolder
  3
ObjectDBX Classes
 90
        0
280
     0
281
     0
  0
CLASS
  1
LAYOUT
  2
AcDbLayout
  3
ObjectDBX Classes
 90
        0
280
     0
281
     0
  0
ENDSEC
  0
SECTION
  2
TABLES
  0
TABLE
  2
VPORT
  5
8
330
0
100
AcDbSymbolTable
 70
     1
  0
VPORT
  5
29
330
8
100
AcDbSymbolTableRecord
100
AcDbViewportTableRecord
  2
*Active
 70
     0
 10
0.0
 20
0.0
 11
1.0
 21
1.0
 12
139.7
 22
107.95
 13
0.0
 23
0.0
 14
10.0
 24
10.0
 15
10.0
 25
10.0
 16
0.0
 26
0.0
 36
1.0
 17
0.0
 27
0.0
 37
0.0
 40
215.9
 41
1.2941176471
 42
50.0
 43
0.0
 44
0.0
 50
0.0
 51
0.0
 71
     0
 72
  2000
 73
     1
 74
     3
 75
     0
 76
     0
 77
     0
 78
     0
281
     0
 65
     1
110
0.0
120
0.0
130
0.0
111
1.0
121
0.0
131
0.0
112
0.0
122
1.0
132
0.0
 79
     0
146
0.0
  0
ENDTAB
  0
TABLE
  2
LTYPE
  5
5
330
0
100
AcDbSymbolTable
 70
     6
  0
LTYPE
  5
14
330
5
100
AcDbSymbolTableRecord
100
AcDbLinetypeTableRecord
  2
ByBlock
 70
     0
  3

 72
    65
 73
     0
 40
0.0
  0
LTYPE
  5
15
330
5
100
AcDbSymbolTableRecord
100
AcDbLinetypeTableRecord
  2
ByLayer
 70
     0
  3

 72
    65
 73
     0
 40
0.0
  0
LTYPE
  5
16
330
5
100
AcDbSymbolTableRecord
100
AcDbLinetypeTableRecord
  2
Continuous
 70
     0
  3
Solid line
 72
    65
 73
     0
 40
0.0
  0
LTYPE
  5
6E
330
5
100
AcDbSymbolTableRecord
100
AcDbLinetypeTableRecord
  2
HIDDEN
 70
     0
  3
Hidden __ __ __ __ __ __ __ __ __ __ __ __ __ __
 72
    65
 73
     2
 40
1.905
 49
1.27
 74
     0
 49
-0.635
 74
     0
  0
LTYPE
  5
6F
330
5
100
AcDbSymbolTableRecord
100
AcDbLinetypeTableRecord
  2
PHANTOM
 70
     0
  3
Phantom ______  __  __  ______  __  __  ______
 72
    65
 73
     6
 40
12.7
 49
6.35
 74
     0
 49
-1.27
 74
     0
 49
1.27
 74
     0
 49
-1.27
 74
     0
 49
1.27
 74
     0
 49
-1.27
 74
     0
  0
LTYPE
  5
70
330
5
100
AcDbSymbolTableRecord
100
AcDbLinetypeTableRecord
  2
CENTER
 70
     0
  3
Center ____ _ ____ _ ____ _ ____ _ ____ _ ____
 72
    65
 73
     4
 40
10.16
 49
6.35
 74
     0
 49
-1.27
 74
     0
 49
1.27
 74
     0
 49
-1.27
 74
     0
  0
LTYPE
  5
71
330
5
100
AcDbSymbolTableRecord
100
AcDbLinetypeTableRecord
  2
CENTERX2
 70
     0
  3
Center (2x) ________  __  ________  __  _____
 72
    65
 73
     4
 40
20.32
 49
12.7
 74
     0
 49
-2.54
 74
     0
 49
2.54
 74
     0
 49
-2.54
 74
     0
  0
LTYPE
  5
72
330
5
100
AcDbSymbolTableRecord
100
AcDbLinetypeTableRecord
  2
DOT2
 70
     0
  3
Dot (.5x) ........................................
 72
    65
 73
     2
 40
0.635
 49
0.0
 74
     0
 49
-0.635
 74
     0
  0
ENDTAB
  0
TABLE
  2
LAYER
  5
2
330
0
100
AcDbSymbolTable
 70
    17
  0
LAYER
  5
10
330
2
100
AcDbSymbolTableRecord
100
AcDbLayerTableRecord
  2
0
 70
     0
 62
     7
  6
Continuous
370
    -3
390
F
  0
LAYER
  5
73
330
2
100
AcDbSymbolTableRecord
100
AcDbLayerTableRecord
  2
FORMAT
 70
     0
 62
     7
  6
Continuous
370
    -3
390
F
  0
LAYER
  5
74
330
2
100
AcDbSymbolTableRecord
100
AcDbLayerTableRecord
  2
YARDIMCI_GEOMETRI
 70
     0
 62
    -6
  6
Continuous
290
     0
370
    -3
390
F
  0
LAYER
  5
75
330
2
100
AcDbSymbolTableRecord
100
AcDbLayerTableRecord
  2
SAYFA_CERCEVESI
 70
     0
 62
     7
  6
Continuous
370
    25
390
F
  0
LAYER
  5
76
330
2
100
AcDbSymbolTableRecord
100
AcDbLayerTableRecord
  2
ANTET
 70
     0
 62
     7
  6
Continuous
370
    -3
390
F
  0
LAYER
  5
77
330
2
100
AcDbSymbolTableRecord
100
AcDbLayerTableRecord
  2
OLCU
 70
     0
 62
   150
  6
Continuous
370
    -3
390
F
  0
LAYER
  5
78
330
2
100
AcDbSymbolTableRecord
100
AcDbLayerTableRecord
  2
METIN
 70
     0
 62
    96
  6
Continuous
370
    -3
390
F
  0
LAYER
  5
79
330
2
100
AcDbSymbolTableRecord
100
AcDbLayerTableRecord
  2
BALON
 70
     0
 62
     5
  6
Continuous
370
    -3
390
F
  0
LAYER
  5
7A
330
2
100
AcDbSymbolTableRecord
100
AcDbLayerTableRecord
  2
VURGU
 70
     0
 62
     7
  6
Continuous
370
    -3
390
F
  0
LAYER
  5
7B
330
2
100
AcDbSymbolTableRecord
100
AcDbLayerTableRecord
  2
SILIK
 70
     0
 62
     7
  6
Continuous
370
    -3
390
F
  0
LAYER
  5
7C
330
2
100
AcDbSymbolTableRecord
100
AcDbLayerTableRecord
  2
MODEL
 70
     0
 62
     7
  6
Continuous
370
    -3
390
F
  0
LAYER
  5
7D
330
2
100
AcDbSymbolTableRecord
100
AcDbLayerTableRecord
  2
DETAYLANDıRMA
 70
     0
 62
   190
  6
Continuous
370
    -3
390
F
  0
LAYER
  5
7E
330
2
100
AcDbSymbolTableRecord
100
AcDbLayerTableRecord
  2
TOLERANS
 70
     0
 62
   230
  6
Continuous
370
    -3
390
F
  0
LAYER
  5
7F
330
2
100
AcDbSymbolTableRecord
100
AcDbLayerTableRecord
  2
MERKEZ_CIZGILERI
 70
     0
 62
    30
  6
Continuous
370
    -3
390
F
  0
LAYER
  5
80
330
2
100
AcDbSymbolTableRecord
100
AcDbLayerTableRecord
  2
KESIT-DETAY_CIZGILERI
 70
     0
 62
     7
  6
Continuous
370
    -3
390
F
  0
LAYER
  5
81
330
2
100
AcDbSymbolTableRecord
100
AcDbLayerTableRecord
  2
\U+041E\U+0421\U+0415\U+0412\U+042B\U+0415
 70
     0
 62
     7
  6
Continuous
370
    -3
390
F
  0
LAYER
  5
82
330
2
100
AcDbSymbolTableRecord
100
AcDbLayerTableRecord
  2
\U+0412\U+041E\U+0414\U+042F\U+041D\U+042B\U+0415_\U+0417\U+041D\U+0410\U+041A\U+0418
 70
     0
 62
    11
  6
Continuous
370
    -3
390
F
  0
ENDTAB
  0
TABLE
  2
STYLE
  5
3
330
0
100
AcDbSymbolTable
 70
     1
  0
STYLE
  5
11
330
3
100
AcDbSymbolTableRecord
100
AcDbTextStyleTableRecord
  2
Standard
 70
     0
 40
0.0
 41
1.0
 50
0.0
 71
     0
 42
3.5
  3
txt
  4

  0
ENDTAB
  0
TABLE
  2
VIEW
  5
6
330
0
100
AcDbSymbolTable
 70
     0
  0
ENDTAB
  0
TABLE
  2
UCS
  5
7
330
0
100
AcDbSymbolTable
 70
     0
  0
ENDTAB
  0
TABLE
  2
APPID
  5
9
330
0
100
AcDbSymbolTable
 70
     1
  0
APPID
  5
12
330
9
100
AcDbSymbolTableRecord
100
AcDbRegAppTableRecord
  2
ACAD
 70
     0
  0
ENDTAB
  0
TABLE
  2
DIMSTYLE
  5
A
330
0
100
AcDbSymbolTable
 70
     1
100
AcDbDimStyleTable
  0
DIMSTYLE
105
27
330
A
100
AcDbSymbolTableRecord
100
AcDbDimStyleTableRecord
  2
ISO-25
 70
     0
 41
2.5
 42
0.625
 43
3.75
 44
1.25
 73
     0
 74
     0
 77
     1
 78
     8
140
2.5
141
2.5
143
0.0393700787
147
0.625
171
     3
172
     1
178
     0
271
     2
272
     2
274
     3
278
    44
283
     0
284
     8
340
11
  0
ENDTAB
  0
TABLE
  2
BLOCK_RECORD
  5
1
330
0
100
AcDbSymbolTable
 70
     5
  0
BLOCK_RECORD
  5
1F
330
1
100
AcDbSymbolTableRecord
100
AcDbBlockTableRecord
  2
*Model_Space
340
22
  0
BLOCK_RECORD
  5
1B
330
1
100
AcDbSymbolTableRecord
100
AcDbBlockTableRecord
  2
*Paper_Space
340
1E
  0
BLOCK_RECORD
  5
23
330
1
100
AcDbSymbolTableRecord
100
AcDbBlockTableRecord
  2
*Paper_Space0
340
26
  0
BLOCK_RECORD
  5
97
330
1
100
AcDbSymbolTableRecord
100
AcDbBlockTableRecord
  2
SW_CENTERMARKSYMBOL_0
340
0
102
{BLKREFS
331
A2
102
}
  0
BLOCK_RECORD
  5
AC
330
1
100
AcDbSymbolTableRecord
100
AcDbBlockTableRecord
  2
SW_CENTERMARKSYMBOL_1
340
0
102
{BLKREFS
331
B7
102
}
  0
BLOCK_RECORD
  5
BF
330
1
100
AcDbSymbolTableRecord
100
AcDbBlockTableRecord
  2
SW_CENTERMARKSYMBOL_2
340
0
102
{BLKREFS
331
CA
102
}
  0
BLOCK_RECORD
  5
D2
330
1
100
AcDbSymbolTableRecord
100
AcDbBlockTableRecord
  2
SW_CENTERMARKSYMBOL_3
340
0
102
{BLKREFS
331
DD
102
}
  0
ENDTAB
  0
ENDSEC
  0
SECTION
  2
BLOCKS
  0
BLOCK
  5
20
330
1F
100
AcDbEntity
  8
0
100
AcDbBlockBegin
  2
*Model_Space
 70
     0
 10
0.0
 20
0.0
 30
0.0
  3
*Model_Space
  1

  0
ENDBLK
  5
21
330
1F
100
AcDbEntity
  8
0
100
AcDbBlockEnd
  0
BLOCK
  5
1C
330
1B
100
AcDbEntity
 67
     1
  8
0
100
AcDbBlockBegin
  2
*Paper_Space
 70
     0
 10
0.0
 20
0.0
 30
0.0
  3
*Paper_Space
  1

  0
ENDBLK
  5
1D
330
1B
100
AcDbEntity
 67
     1
  8
0
100
AcDbBlockEnd
  0
BLOCK
  5
24
330
23
100
AcDbEntity
  8
0
100
AcDbBlockBegin
  2
*Paper_Space0
 70
     0
 10
0.0
 20
0.0
 30
0.0
  3
*Paper_Space0
  1

  0
ENDBLK
  5
25
330
23
100
AcDbEntity
  8
0
100
AcDbBlockEnd
  0
BLOCK
  5
98
330
97
100
AcDbEntity
  8
0
100
AcDbBlockBegin
  2
SW_CENTERMARKSYMBOL_0
 70
     0
 10
0.0
 20
0.0
 30
0.0
  3
SW_CENTERMARKSYMBOL_0
  1

  0
LINE
  5
9A
330
97
100
AcDbEntity
  8
FORMAT
 62
     0
100
AcDbLine
 10
0.0
 20
0.0
 30
0.0
 11
0.0
 21
2.5
 31
0.0
  0
LINE
  5
9B
330
97
100
AcDbEntity
  8
FORMAT
 62
     0
100
AcDbLine
 10
0.0
 20
0.0
 30
0.0
 11
-2.5
 21
0.0
 31
0.0
  0
LINE
  5
9C
330
97
100
AcDbEntity
  8
FORMAT
 62
     0
100
AcDbLine
 10
0.0
 20
0.0
 30
0.0
 11
0.0
 21
-2.5
 31
0.0
  0
LINE
  5
9D
330
97
100
AcDbEntity
  8
FORMAT
 62
     0
100
AcDbLine
 10
0.0
 20
0.0
 30
0.0
 11
2.5
 21
0.0
 31
0.0
  0
LINE
  5
9E
330
97
100
AcDbEntity
  8
FORMAT
 62
     0
100
AcDbLine
 10
0.0
 20
5.0
 30
0.0
 11
0.0
 21
65.0
 31
0.0
  0
LINE
  5
9F
330
97
100
AcDbEntity
  8
FORMAT
 62
     0
100
AcDbLine
 10
-5.0
 20
0.0
 30
0.0
 11
-65.0
 21
0.0
 31
0.0
  0
LINE
  5
A0
330
97
100
AcDbEntity
  8
FORMAT
 62
     0
100
AcDbLine
 10
0.0
 20
-5.0
 30
0.0
 11
0.0
 21
-65.0
 31
0.0
  0
LINE
  5
A1
330
97
100
AcDbEntity
  8
FORMAT
 62
     0
100
AcDbLine
 10
5.0
 20
0.0
 30
0.0
 11
65.0
 21
0.0
 31
0.0
  0
ENDBLK
  5
99
330
97
100
AcDbEntity
  8
0
100
AcDbBlockEnd
  0
BLOCK
  5
AD
330
AC
100
AcDbEntity
  8
0
100
AcDbBlockBegin
  2
SW_CENTERMARKSYMBOL_1
 70
     0
 10
0.0
 20
0.0
 30
0.0
  3
SW_CENTERMARKSYMBOL_1
  1

  0
LINE
  5
AF
330
AC
100
AcDbEntity
  8
FORMAT
 62
     0
100
AcDbLine
 10
0.0
 20
0.0
 30
0.0
 11
0.0
 21
2.5
 31
0.0
  0
LINE
  5
B0
330
AC
100
AcDbEntity
  8
FORMAT
 62
     0
100
AcDbLine
 10
0.0
 20
0.0
 30
0.0
 11
-2.5
 21
0.0
 31
0.0
  0
LINE
  5
B1
330
AC
100
AcDbEntity
  8
FORMAT
 62
     0
100
AcDbLine
 10
0.0
 20
0.0
 30
0.0
 11
0.0
 21
-2.5
 31
0.0
  0
LINE
  5
B2
330
AC
100
AcDbEntity
  8
FORMAT
 62
     0
100
AcDbLine
 10
0.0
 20
0.0
 30
0.0
 11
2.5
 21
0.0
 31
0.0
  0
LINE
  5
B3
330
AC
100
AcDbEntity
  8
FORMAT
 62
     0
100
AcDbLine
 10
0.0
 20
5.0
 30
0.0
 11
0.0
 21
65.0
 31
0.0
  0
LINE
  5
B4
330
AC
100
AcDbEntity
  8
FORMAT
 62
     0
100
AcDbLine
 10
-5.0
 20
0.0
 30
0.0
 11
-65.0
 21
0.0
 31
0.0
  0
LINE
  5
B5
330
AC
100
AcDbEntity
  8
FORMAT
 62
     0
100
AcDbLine
 10
0.0
 20
-5.0
 30
0.0
 11
0.0
 21
-65.0
 31
0.0
  0
LINE
  5
B6
330
AC
100
AcDbEntity
  8
FORMAT
 62
     0
100
AcDbLine
 10
5.0
 20
0.0
 30
0.0
 11
65.0
 21
0.0
 31
0.0
  0
ENDBLK
  5
AE
330
AC
100
AcDbEntity
  8
0
100
AcDbBlockEnd
  0
BLOCK
  5
C0
330
BF
100
AcDbEntity
  8
0
100
AcDbBlockBegin
  2
SW_CENTERMARKSYMBOL_2
 70
     0
 10
0.0
 20
0.0
 30
0.0
  3
SW_CENTERMARKSYMBOL_2
  1

  0
LINE
  5
C2
330
BF
100
AcDbEntity
  8
FORMAT
 62
     0
100
AcDbLine
 10
0.0
 20
0.0
 30
0.0
 11
0.0
 21
2.5
 31
0.0
  0
LINE
  5
C3
330
BF
100
AcDbEntity
  8
FORMAT
 62
     0
100
AcDbLine
 10
0.0
 20
0.0
 30
0.0
 11
-2.5
 21
0.0
 31
0.0
  0
LINE
  5
C4
330
BF
100
AcDbEntity
  8
FORMAT
 62
     0
100
AcDbLine
 10
0.0
 20
0.0
 30
0.0
 11
0.0
 21
-2.5
 31
0.0
  0
LINE
  5
C5
330
BF
100
AcDbEntity
  8
FORMAT
 62
     0
100
AcDbLine
 10
0.0
 20
0.0
 30
0.0
 11
2.5
 21
0.0
 31
0.0
  0
LINE
  5
C6
330
BF
100
AcDbEntity
  8
FORMAT
 62
     0
100
AcDbLine
 10
0.0
 20
5.0
 30
0.0
 11
0.0
 21
65.0
 31
0.0
  0
LINE
  5
C7
330
BF
100
AcDbEntity
  8
FORMAT
 62
     0
100
AcDbLine
 10
-5.0
 20
0.0
 30
0.0
 11
-65.0
 21
0.0
 31
0.0
  0
LINE
  5
C8
330
BF
100
AcDbEntity
  8
FORMAT
 62
     0
100
AcDbLine
 10
0.0
 20
-5.0
 30
0.0
 11
0.0
 21
-65.0
 31
0.0
  0
LINE
  5
C9
330
BF
100
AcDbEntity
  8
FORMAT
 62
     0
100
AcDbLine
 10
5.0
 20
0.0
 30
0.0
 11
65.0
 21
0.0
 31
0.0
  0
ENDBLK
  5
C1
330
BF
100
AcDbEntity
  8
0
100
AcDbBlockEnd
  0
BLOCK
  5
D3
330
D2
100
AcDbEntity
  8
0
100
AcDbBlockBegin
  2
SW_CENTERMARKSYMBOL_3
 70
     0
 10
0.0
 20
0.0
 30
0.0
  3
SW_CENTERMARKSYMBOL_3
  1

  0
LINE
  5
D5
330
D2
100
AcDbEntity
  8
FORMAT
 62
     0
100
AcDbLine
 10
0.0
 20
0.0
 30
0.0
 11
0.0
 21
2.5
 31
0.0
  0
LINE
  5
D6
330
D2
100
AcDbEntity
  8
FORMAT
 62
     0
100
AcDbLine
 10
0.0
 20
0.0
 30
0.0
 11
-2.5
 21
0.0
 31
0.0
  0
LINE
  5
D7
330
D2
100
AcDbEntity
  8
FORMAT
 62
     0
100
AcDbLine
 10
0.0
 20
0.0
 30
0.0
 11
0.0
 21
-2.5
 31
0.0
  0
LINE
  5
D8
330
D2
100
AcDbEntity
  8
FORMAT
 62
     0
100
AcDbLine
 10
0.0
 20
0.0
 30
0.0
 11
2.5
 21
0.0
 31
0.0
  0
LINE
  5
D9
330
D2
100
AcDbEntity
  8
FORMAT
 62
     0
100
AcDbLine
 10
0.0
 20
5.0
 30
0.0
 11
0.0
 21
65.0
 31
0.0
  0
LINE
  5
DA
330
D2
100
AcDbEntity
  8
FORMAT
 62
     0
100
AcDbLine
 10
-5.0
 20
0.0
 30
0.0
 11
-65.0
 21
0.0
 31
0.0
  0
LINE
  5
DB
330
D2
100
AcDbEntity
  8
FORMAT
 62
     0
100
AcDbLine
 10
0.0
 20
-5.0
 30
0.0
 11
0.0
 21
-65.0
 31
0.0
  0
LINE
  5
DC
330
D2
100
AcDbEntity
  8
FORMAT
 62
     0
100
AcDbLine
 10
5.0
 20
0.0
 30
0.0
 11
65.0
 21
0.0
 31
0.0
  0
ENDBLK
  5
D4
330
D2
100
AcDbEntity
  8
0
100
AcDbBlockEnd
  0
ENDSEC
  0
SECTION
  2
ENTITIES
  0
LINE
  5
83
330
1F
100
AcDbEntity
  8
0
  6
Continuous
 62
     7
370
    25
100
AcDbLine
 10
24.4102639319
 20
104.7145238809
 30
0.0
 11
24.4102639319
 21
-5.7854761191
 31
0.0
  0
LINE
  5
84
330
1F
100
AcDbEntity
  8
0
  6
Continuous
 62
     7
370
    25
100
AcDbLine
 10
149.4102639319
 20
-5.7854761191
 30
0.0
 11
149.4102639319
 21
104.7145238809
 31
0.0
  0
ARC
  5
85
330
1F
100
AcDbEntity
  8
0
  6
Continuous
 62
     7
370
    25
100
AcDbCircle
 10
149.4102639319
 20
104.7145238809
 30
0.0
 40
125.0
100
AcDbArc
 50
90.0
 51
180.0
  0
LINE
  5
86
330
1F
100
AcDbEntity
  8
0
  6
Continuous
 62
     7
370
    25
100
AcDbLine
 10
259.9102639319
 20
229.7145238809
 30
0.0
 11
149.4102639319
 21
229.7145238809
 31
0.0
  0
LINE
  5
87
330
1F
100
AcDbEntity
  8
0
  6
Continuous
 62
     7
370
    25
100
AcDbLine
 10
149.4102639319
 20
104.7145238809
 30
0.0
 11
259.9102639319
 21
104.7145238809
 31
0.0
  0
LINE
  5
88
330
1F
100
AcDbEntity
  8
0
  6
Continuous
 62
     7
370
    25
100
AcDbLine
 10
86.9102639319
 20
-5.7854761191
 30
0.0
 11
149.4102639319
 21
-5.7854761191
 31
0.0
  0
LINE
  5
89
330
1F
100
AcDbEntity
  8
0
  6
Continuous
 62
     7
370
    25
100
AcDbLine
 10
24.4102639319
 20
-5.7854761191
 30
0.0
 11
86.9102639319
 21
-5.7854761191
 31
0.0
  0
LINE
  5
8A
330
1F
100
AcDbEntity
  8
0
  6
Continuous
 62
     7
370
    25
100
AcDbLine
 10
259.9102639319
 20
167.2145238809
 30
0.0
 11
259.9102639319
 21
104.7145238809
 31
0.0
  0
LINE
  5
8B
330
1F
100
AcDbEntity
  8
0
  6
Continuous
 62
     7
370
    25
100
AcDbLine
 10
259.9102639319
 20
229.7145238809
 30
0.0
 11
259.9102639319
 21
167.2145238809
 31
0.0
  0
LINE
  5
8C
330
1F
100
AcDbEntity
  8
0
  6
Continuous
 62
     1
370
    25
100
AcDbLine
 10
24.4102639319
 20
104.7145238809
 30
0.0
 11
149.4102639319
 21
104.7145238809
 31
0.0
  0
LINE
  5
8D
330
1F
100
AcDbEntity
  8
0
  6
Continuous
 62
     1
370
    25
100
AcDbLine
 10
149.4102639319
 20
229.7145238809
 30
0.0
 11
149.4102639319
 21
104.7145238809
 31
0.0
  0
LINE
  5
8E
330
1F
100
AcDbEntity
  8
0
  6
Continuous
 62
     7
370
    25
100
AcDbLine
 10
-186.2182270293
 20
167.2145238809
 30
0.0
 11
-186.2182270293
 21
104.7145238809
 31
0.0
  0
LINE
  5
8F
330
1F
100
AcDbEntity
  8
0
  6
Continuous
 62
     7
370
    25
100
AcDbLine
 10
-61.2182270293
 20
104.7145238809
 30
0.0
 11
-61.2182270293
 21
167.2145238809
 31
0.0
  0
LINE
  5
90
330
1F
100
AcDbEntity
  8
0
  6
Continuous
 62
     7
370
    25
100
AcDbLine
 10
-186.2182270293
 20
104.7145238809
 30
0.0
 11
-186.2182270293
 21
-5.7854761191
 31
0.0
  0
LINE
  5
91
330
1F
100
AcDbEntity
  8
0
  6
Continuous
 62
     7
370
    25
100
AcDbLine
 10
-61.2182270293
 20
-5.7854761191
 30
0.0
 11
-61.2182270293
 21
104.7145238809
 31
0.0
  0
CIRCLE
  5
92
330
1F
100
AcDbEntity
  8
0
  6
Continuous
 62
     7
370
    25
100
AcDbCircle
 10
-123.7182270293
 20
167.2145238809
 30
0.0
 40
62.5
  0
CIRCLE
  5
93
330
1F
100
AcDbEntity
  8
0
  6
Continuous
 62
     7
370
    25
100
AcDbCircle
 10
-123.7182270293
 20
167.2145238809
 30
0.0
 40
55.09999999999997
  0
LINE
  5
94
330
1F
100
AcDbEntity
  8
0
  6
Continuous
 62
     7
370
    25
100
AcDbLine
 10
-186.2182270293
 20
-5.7854761191
 30
0.0
 11
-61.2182270293
 21
-5.7854761191
 31
0.0
  0
LINE
  5
95
330
1F
100
AcDbEntity
  8
0
  6
Continuous
 62
     1
370
    25
100
AcDbLine
 10
-123.7182270293
 20
104.7145238809
 30
0.0
 11
-61.2182270293
 21
104.7145238809
 31
0.0
  0
LINE
  5
96
330
1F
100
AcDbEntity
  8
0
  6
Continuous
 62
     1
370
    25
100
AcDbLine
 10
-186.2182270293
 20
104.7145238809
 30
0.0
 11
-123.7182270293
 21
104.7145238809
 31
0.0
  0
INSERT
  5
A2
330
1F
100
AcDbEntity
  8
FORMAT
 62
     7
100
AcDbBlockReference
  2
SW_CENTERMARKSYMBOL_0
 10
-123.7182270293
 20
167.2145238809
 30
0.0
  0
LINE
  5
A3
330
1F
100
AcDbEntity
  8
0
  6
Continuous
 62
     7
370
    25
100
AcDbLine
 10
259.9102639319
 20
421.1859993187
 30
0.0
 11
149.4102639319
 21
421.1859993187
 31
0.0
  0
LINE
  5
A4
330
1F
100
AcDbEntity
  8
0
  6
Continuous
 62
     7
370
    25
100
AcDbLine
 10
149.4102639319
 20
296.1859993187
 30
0.0
 11
259.9102639319
 21
296.1859993187
 31
0.0
  0
LINE
  5
A5
330
1F
100
AcDbEntity
  8
0
  6
Continuous
 62
     7
370
    25
100
AcDbLine
 10
149.4102639319
 20
421.1859993187
 30
0.0
 11
86.9102639319
 21
421.1859993187
 31
0.0
  0
LINE
  5
A6
330
1F
100
AcDbEntity
  8
0
  6
Continuous
 62
     7
370
    25
100
AcDbLine
 10
86.9102639319
 20
296.1859993187
 30
0.0
 11
149.4102639319
 21
296.1859993187
 31
0.0
  0
CIRCLE
  5
A7
330
1F
100
AcDbEntity
  8
0
  6
Continuous
 62
     7
370
    25
100
AcDbCircle
 10
86.9102639319
 20
358.6859993187
 30
0.0
 40
55.10000000000002
  0
CIRCLE
  5
A8
330
1F
100
AcDbEntity
  8
0
  6
Continuous
 62
     7
370
    25
100
AcDbCircle
 10
86.9102639319
 20
358.6859993187
 30
0.0
 40
62.50000000000006
  0
LINE
  5
A9
330
1F
100
AcDbEntity
  8
0
  6
Continuous
 62
     7
370
    25
100
AcDbLine
 10
259.9102639319
 20
421.1859993187
 30
0.0
 11
259.9102639319
 21
296.1859993187
 31
0.0
  0
LINE
  5
AA
330
1F
100
AcDbEntity
  8
0
  6
Continuous
 62
     1
370
    25
100
AcDbLine
 10
149.4102639319
 20
358.6859993187
 30
0.0
 11
149.4102639319
 21
296.1859993187
 31
0.0
  0
LINE
  5
AB
330
1F
100
AcDbEntity
  8
0
  6
Continuous
 62
     1
370
    25
100
AcDbLine
 10
149.4102639319
 20
421.1859993187
 30
0.0
 11
149.4102639319
 21
358.6859993187
 31
0.0
  0
INSERT
  5
B7
330
1F
100
AcDbEntity
  8
FORMAT
 62
     7
100
AcDbBlockReference
  2
SW_CENTERMARKSYMBOL_1
 10
86.9102639319
 20
358.6859993187
 30
0.0
  0
LINE
  5
B8
330
1F
100
AcDbEntity
  8
0
  6
Continuous
 62
     7
370
    25
100
AcDbLine
 10
354.6867851909
 20
104.7145238809
 30
0.0
 11
354.6867851909
 21
-5.7854761191
 31
0.0
  0
LINE
  5
B9
330
1F
100
AcDbEntity
  8
0
  6
Continuous
 62
     7
370
    25
100
AcDbLine
 10
479.6867851909
 20
-5.7854761191
 30
0.0
 11
479.6867851909
 21
104.7145238809
 31
0.0
  0
LINE
  5
BA
330
1F
100
AcDbEntity
  8
0
  6
Continuous
 62
     7
370
    25
100
AcDbLine
 10
479.6867851909
 20
104.7145238809
 30
0.0
 11
479.6867851909
 21
167.2145238809
 31
0.0
  0
LINE
  5
BB
330
1F
100
AcDbEntity
  8
0
  6
Continuous
 62
     7
370
    25
100
AcDbLine
 10
354.6867851909
 20
167.2145238809
 30
0.0
 11
354.6867851909
 21
104.7145238809
 31
0.0
  0
LINE
  5
BC
330
1F
100
AcDbEntity
  8
0
  6
Continuous
 62
     7
370
    25
100
AcDbLine
 10
354.6867851909
 20
-5.7854761191
 30
0.0
 11
479.6867851909
 21
-5.7854761191
 31
0.0
  0
ARC
  5
BD
330
1F
100
AcDbEntity
  8
0
  6
Continuous
 62
     7
370
    25
100
AcDbCircle
 10
417.1867851909
 20
167.2145238809
 30
0.0
 40
62.5
100
AcDbArc
 50
0.0
 51
180.0
  0
LINE
  5
BE
330
1F
100
AcDbEntity
  8
0
  6
Continuous
 62
     1
370
    25
100
AcDbLine
 10
354.6867851909
 20
104.7145238809
 30
0.0
 11
479.6867851909
 21
104.7145238809
 31
0.0
  0
INSERT
  5
CA
330
1F
100
AcDbEntity
  8
FORMAT
 62
     7
100
AcDbBlockReference
  2
SW_CENTERMARKSYMBOL_2
 10
417.1867851909
 20
167.2145238809
 30
0.0
  0
LINE
  5
CB
330
1F
100
AcDbEntity
  8
0
  6
Continuous
 62
     7
370
    25
100
AcDbLine
 10
86.9102639319
 20
-212.6690752335
 30
0.0
 11
149.4102639319
 21
-212.6690752335
 31
0.0
  0
LINE
  5
CC
330
1F
100
AcDbEntity
  8
0
  6
Continuous
 62
     7
370
    25
100
AcDbLine
 10
149.4102639319
 20
-87.6690752335
 30
0.0
 11
86.9102639319
 21
-87.6690752335
 31
0.0
  0
LINE
  5
CD
330
1F
100
AcDbEntity
  8
0
  6
Continuous
 62
     7
370
    25
100
AcDbLine
 10
259.9102639319
 20
-87.6690752335
 30
0.0
 11
149.4102639319
 21
-87.6690752335
 31
0.0
  0
LINE
  5
CE
330
1F
100
AcDbEntity
  8
0
  6
Continuous
 62
     7
370
    25
100
AcDbLine
 10
149.4102639319
 20
-212.6690752335
 30
0.0
 11
259.9102639319
 21
-212.6690752335
 31
0.0
  0
ARC
  5
CF
330
1F
100
AcDbEntity
  8
0
  6
Continuous
 62
     7
370
    25
100
AcDbCircle
 10
86.9102639319
 20
-150.1690752335
 30
0.0
 40
62.50000000000003
100
AcDbArc
 50
90.0
 51
270.0
  0
LINE
  5
D0
330
1F
100
AcDbEntity
  8
0
  6
Continuous
 62
     7
370
    25
100
AcDbLine
 10
259.9102639319
 20
-87.6690752335
 30
0.0
 11
259.9102639319
 21
-212.6690752335
 31
0.0
  0
LINE
  5
D1
330
1F
100
AcDbEntity
  8
0
  6
Continuous
 62
     1
370
    25
100
AcDbLine
 10
149.4102639319
 20
-87.6690752335
 30
0.0
 11
149.4102639319
 21
-212.6690752335
 31
0.0
  0
INSERT
  5
DD
330
1F
100
AcDbEntity
  8
FORMAT
 62
     7
100
AcDbBlockReference
  2
SW_CENTERMARKSYMBOL_3
 10
86.9102639319
 20
-150.1690752335
 30
0.0
  0
LINE
  5
DE
330
1F
100
AcDbEntity
  8
0
  6
Continuous
 62
     7
370
    25
100
AcDbLine
 10
469.5970069807
 20
-37.1616835814
 30
0.0
 11
391.4617076596
 21
-82.2682317596
 31
0.0
  0
LINE
  5
DF
330
1F
100
AcDbEntity
  8
0
  6
Continuous
 62
     7
370
    25
100
AcDbLine
 10
453.9566284494
 20
-190.5243395572
 30
0.0
 11
532.0919277705
 21
-145.417791379
 31
0.0
  0
LINE
  5
E0
330
1F
100
AcDbEntity
  8
0
  6
Continuous
 62
     7
370
    25
100
AcDbLine
 10
316.0149942304
 20
-212.9428398957
 30
0.0
 11
316.0149942304
 21
-303.1705996091
 31
0.0
  0
LINE
  5
E1
330
1F
100
AcDbEntity
  8
0
  6
Continuous
 62
     7
370
    25
100
AcDbLine
 10
441.0149942304
 20
-303.1705996091
 30
0.0
 11
441.0149942304
 21
-212.9428398957
 31
0.0
  0
SPLINE
  5
E2
330
1F
100
AcDbEntity
  8
0
  6
Continuous
 62
     7
370
    25
100
AcDbSpline
210
0.0
220
0.0
230
1.0
 70
     8
 71
     3
 72
    38
 73
    34
 74
     0
 42
0.00000001
 43
0.00000001
 40
0.0
 40
0.0
 40
0.0
 40
0.0
 40
0.021407436121762
 40
0.0543110237849344
 40
0.0872979226369504
 40
0.1204461378624945
 40
0.1536935245966539
 40
0.186975024862668
 40
0.2202404718719797
 40
0.2534580561432446
 40
0.2866073721316922
 40
0.3196785745586928
 40
0.3526709224464322
 40
0.3855911236512675
 40
0.4184517283495863
 40
0.4512697011914723
 40
0.4840652128300933
 40
0.5168606347039697
 40
0.5496795890806595
 40
0.5825384547099896
 40
0.615461597090557
 40
0.6484726945908204
 40
0.6815938577045195
 40
0.7148445651899946
 40
0.7482403467278115
 40
0.7817911657635884
 40
0.815499504616277
 40
0.8493582412918113
 40
0.8833485420663982
 40
0.9174381658063505
 40
0.9515706337492362
 40
0.9856741634795375
 40
1.0
 40
1.0
 40
1.0
 40
1.0
 10
391.4617076596329
 20
-82.26823175957873
 30
0.0
 10
390.5247981259441
 20
-82.8191119503163
 30
0.0
 10
388.1478429558304
 20
-84.21670421552841
 30
0.0
 10
384.4056994877704
 20
-86.62659600609626
 30
0.0
 10
380.2473167025759
 20
-89.52710692122162
 30
0.0
 10
376.1709504417955
 20
-92.61264222787216
 30
0.0
 10
372.1805252025218
 20
-95.87317491304434
 30
0.0
 10
368.28703187181
 20
-99.29839438479657
 30
0.0
 10
364.4993057897356
 20
-102.8766213088595
 30
0.0
 10
360.8243923552884
 20
-106.5972407306495
 30
0.0
 10
357.267711894595
 20
-110.4504442487668
 30
0.0
 10
353.8336031770438
 20
-114.4272547115429
 30
0.0
 10
350.5255670871521
 20
-118.519540534626
 30
0.0
 10
347.346529506326
 20
-122.7199935184684
 30
0.0
 10
344.2990732000528
 20
-127.022052831131
 30
0.0
 10
341.3856337806124
 20
-131.4198121266655
 30
0.0
 10
338.6086575518872
 20
-135.9079211095613
 30
0.0
 10
335.9707295346955
 20
-140.481484852022
 30
0.0
 10
333.4748712827099
 20
-145.1356003672414
 30
0.0
 10
331.1243635410246
 20
-149.8656227452486
 30
0.0
 10
328.9228050470574
 20
-154.6670932186894
 30
0.0
 10
326.8740263262028
 20
-159.5360387984761
 30
0.0
 10
324.9823490244129
 20
-164.46846751365
 30
0.0
 10
323.252635364033
 20
-169.4602040960939
 30
0.0
 10
321.6903251376391
 20
-174.5066824423057
 30
0.0
 10
320.3014381500256
 20
-179.6026892075239
 30
0.0
 10
319.0925688718179
 20
-184.7420548193846
 30
0.0
 10
318.0706917885825
 20
-189.9173241378017
 30
0.0
 10
317.2433604901007
 20
-195.1193761806312
 30
0.0
 10
316.6170768045953
 20
-200.3367841214784
 30
0.0
 10
316.2021058379092
 20
-205.5550018706168
 30
0.0
 10
316.0324926684728
 20
-209.7575559100767
 30
0.0
 10
316.0189887957864
 20
-212.2156992661636
 30
0.0
 10
316.0149942303508
 20
-212.9428398956904
 30
0.0
  0
SPLINE
  5
E3
330
1F
100
AcDbEntity
  8
0
  6
Continuous
 62
     7
370
    25
100
AcDbSpline
210
0.0
220
0.0
230
1.0
 70
     8
 71
     3
 72
    33
 73
    29
 74
     0
 42
0.00000001
 43
0.00000001
 40
0.0
 40
0.0
 40
0.0
 40
0.0
 40
0.0097248526856154
 40
0.0518444889159114
 40
0.0925534102137082
 40
0.1322369334415005
 40
0.1712418186633277
 40
0.2098688751834721
 40
0.2483670704548366
 40
0.2869294622587885
 40
0.3256688209977034
 40
0.364656254623297
 40
0.4039359680224949
 40
0.443505607536488
 40
0.483325569569142
 40
0.523330146509041
 40
0.5634377240561484
 40
0.6035433965399173
 40
0.6435865275581217
 40
0.6835388861963662
 40
0.7234170139422417
 40
0.763292597364675
 40
0.8032999423657242
 40
0.8435887189613727
 40
0.8843887354213412
 40
0.9260024548189058
 40
0.9687869080249959
 40
1.0
 40
1.0
 40
1.0
 40
1.0
 10
441.0146116997989
 20
-212.9857532002596
 30
0.0
 10
441.014531049093
 20
-212.9914506557437
 30
0.0
 10
441.0141010894043
 20
-213.0218245521144
 30
0.0
 10
441.0201182864012
 20
-212.8778563045107
 30
0.0
 10
441.0550537138153
 20
-212.544647445543
 30
0.0
 10
441.1330940090014
 20
-212.0068569129917
 30
0.0
 10
441.2669681989013
 20
-211.2965560118952
 30
0.0
 10
441.4681194194233
 20
-210.4214039720522
 30
0.0
 10
441.7459722423739
 20
-209.3973766107414
 30
0.0
 10
442.1077506681257
 20
-208.2410923570862
 30
0.0
 10
442.5580292976969
 20
-206.9723251093624
 30
0.0
 10
443.098424130877
 20
-205.6132104397829
 30
0.0
 10
443.727447125236
 20
-204.1878498448873
 30
0.0
 10
444.4402847016559
 20
-202.7219904527141
 30
0.0
 10
445.2285447101611
 20
-201.2427570877508
 30
0.0
 10
446.0802592184002
 20
-199.777896158354
 30
0.0
 10
446.9799144555444
 20
-198.3551195962339
 30
0.0
 10
447.9090510109187
 20
-197.0006846247997
 30
0.0
 10
448.84695736033
 20
-195.738287150099
 30
0.0
 10
449.771619811386
 20
-194.5879787497773
 30
0.0
 10
450.6602778717693
 20
-193.5658632544242
 30
0.0
 10
451.4900373500736
 20
-192.6837954522346
 30
0.0
 10
452.2383185052073
 20
-191.9494787981031
 30
0.0
 10
452.8826520555211
 20
-191.3667598814091
 30
0.0
 10
453.4044059020433
 20
-190.9336365945393
 30
0.0
 10
453.7766032590859
 20
-190.6504466891691
 30
0.0
 10
453.98736042466
 20
-190.5066551333594
 30
0.0
 10
453.9893404686341
 20
-190.5057666601385
 30
0.0
 10
453.9901756759984
 20
-190.5053918909986
 30
0.0
  0
LWPOLYLINE
  5
E4
330
1F
100
AcDbEntity
  8
0
  6
Continuous
 62
     7
370
    25
100
AcDbPolyline
 90
      101
 70
   128
 43
0.0
 10
456.6502935515
 20
-65.7769839857
 10
456.7375006583
 20
-69.0317664391
 10
456.9987778122
 20
-72.3743909355
 10
457.4330938717
 20
-75.7916656631
 10
458.0387347896
 20
-79.2701041997
 10
458.8133103779
 20
-82.7959787377
 10
459.7537637407
 20
-86.355374261
 10
460.8563833381
 20
-89.9342434617
 10
462.1168176345
 20
-93.5184621779
 10
463.5300922714
 20
-97.093885136
 10
465.0906296995
 20
-100.6464017749
 10
466.7922711906
 20
-104.1619919346
 10
468.628301143
 20
-107.6267811866
 10
470.5914735854
 20
-111.0270955909
 10
472.674040773
 20
-114.3495156598
 10
474.8677837645
 20
-117.5809293193
 10
477.1640448587
 20
-120.7085836558
 10
479.5537617619
 20
-123.7201352468
 10
482.0275033535
 20
-126.6036988737
 10
484.5755069053
 20
-129.3478944285
 10
487.1877166116
 20
-131.9418918249
 10
489.8538232739
 20
-134.3754537403
 10
492.5633049874
 20
-136.6389760176
 10
495.3054686655
 20
-138.7235255685
 10
498.069492241
 20
-140.6208756283
 10
500.8444673756
 20
-142.323538223
 10
503.6194425102
 20
-143.8247937214
 10
506.3834660857
 20
-145.1187173537
 10
509.1256297638
 20
-146.2002025946
 10
511.8351114773
 20
-147.0649813159
 10
514.5012181396
 20
-147.7096406311
 10
517.1134278459
 20
-148.1316363643
 10
519.6614313978
 20
-148.3293030912
 10
522.1351729893
 20
-148.3018607116
 10
524.5248898926
 20
-148.0494175279
 10
526.8211509867
 20
-147.5729698181
 10
529.0148939783
 20
-146.8743979036
 10
531.0974611659
 20
-145.9564587287
 10
533.0606336082
 20
-144.8227749798
 10
534.8966635607
 20
-143.4778207889
 10
536.5983050517
 20
-141.9269040756
 10
538.1588424799
 20
-140.1761455996
 10
539.5721171168
 20
-138.2324548049
 10
540.8325514131
 20
-136.103502551
 10
541.9351710106
 20
-133.7976908398
 10
542.8756243734
 20
-131.3241196568
 10
543.6501999617
 20
-128.6925510573
 10
544.2558408796
 20
-125.9133706403
 10
544.690156939
 20
-122.9975465612
 10
544.9514340929
 20
-119.9565862456
 10
545.0386411998
 20
-116.8024909746
 10
544.9514340929
 20
-113.5477085212
 10
544.690156939
 20
-110.2050840249
 10
544.2558408796
 20
-106.7878092973
 10
543.6501999617
 20
-103.3093707606
 10
542.8756243734
 20
-99.7834962226
 10
541.9351710106
 20
-96.2241006993
 10
540.8325514131
 20
-92.6452314987
 10
539.5721171168
 20
-89.0610127824
 10
538.1588424799
 20
-85.4855898243
 10
536.5983050517
 20
-81.9330731854
 10
534.8966635607
 20
-78.4174830258
 10
533.0606336082
 20
-74.9526937737
 10
531.0974611659
 20
-71.5523793695
 10
529.0148939783
 20
-68.2299593005
 10
526.8211509867
 20
-64.9985456411
 10
524.5248898926
 20
-61.8708913045
 10
522.1351729893
 20
-58.8593397136
 10
519.6614313978
 20
-55.9757760866
 10
517.1134278459
 20
-53.2315805319
 10
514.5012181396
 20
-50.6375831354
 10
511.8351114773
 20
-48.20402122
 10
509.1256297638
 20
-45.9404989427
 10
506.3834660857
 20
-43.8559493918
 10
503.6194425102
 20
-41.9585993321
 10
500.8444673756
 20
-40.2559367373
 10
498.069492241
 20
-38.754681239
 10
495.3054686655
 20
-37.4607576066
 10
492.5633049874
 20
-36.3792723657
 10
489.8538232739
 20
-35.5144936444
 10
487.1877166116
 20
-34.8698343293
 10
484.5755069053
 20
-34.447838596
 10
482.0275033535
 20
-34.2501718691
 10
479.5537617619
 20
-34.2776142488
 10
477.1640448587
 20
-34.5300574324
 10
474.8677837645
 20
-35.0065051422
 10
472.674040773
 20
-35.7050770567
 10
470.5914735854
 20
-36.6230162316
 10
468.628301143
 20
-37.7566999805
 10
466.7922711906
 20
-39.1016541715
 10
465.0906296995
 20
-40.6525708848
 10
463.5300922714
 20
-42.4033293607
 10
462.1168176345
 20
-44.3470201554
 10
460.8563833381
 20
-46.4759724093
 10
459.7537637407
 20
-48.7817841205
 10
458.8133103779
 20
-51.2553553035
 10
458.0387347896
 20
-53.8869239031
 10
457.4330938717
 20
-56.6661043201
 10
456.9987778122
 20
-59.5819283991
 10
456.7375006583
 20
-62.6228887147
 10
456.6502935515
 20
-65.7769839857
  0
LWPOLYLINE
  5
E5
330
1F
100
AcDbEntity
  8
0
  6
Continuous
 62
     7
370
    25
100
AcDbPolyline
 90
       95
 70
   128
 43
0.0
 10
461.8828837322
 20
-68.7976939995
 10
461.9698896776
 20
-65.8428274452
 10
462.2305189238
 20
-63.0016129684
 10
462.6636074375
 20
-60.2867401228
 10
463.2672209403
 20
-57.7103341895
 10
464.0386635476
 20
-55.2839020228
 10
464.9744898096
 20
-53.0182806578
 10
466.070520099
 20
-50.9235889095
 10
467.3218592784
 20
-49.0091821798
 10
468.7229185633
 20
-47.2836106738
 10
470.2674404828
 20
-45.7545812127
 10
471.9485268271
 20
-44.4289228134
 10
473.7586694565
 20
-43.312556188
 10
475.6897838346
 20
-42.4104673009
 10
477.7332451358
 20
-41.7266851
 10
479.8799267658
 20
-41.2642635227
 10
482.1202411234
 20
-41.025267856
 10
484.4441824209
 20
-41.0107655125
 10
486.8413713721
 20
-41.2208212631
 10
489.3011015495
 20
-41.6544969481
 10
491.8123872008
 20
-42.3098556664
 10
494.3640123147
 20
-43.1839704269
 10
496.9445807141
 20
-44.2729372209
 10
499.542566954
 20
-45.5718924584
 10
502.1463677972
 20
-47.0750346899
 10
504.7443540372
 20
-48.7756505174
 10
507.3249224366
 20
-50.6661445777
 10
509.8765475505
 20
-52.7380734654
 10
512.3878332018
 20
-54.9821834432
 10
514.8475633791
 20
-57.3884517711
 10
517.2447523304
 20
-59.9461314706
 10
519.5686936278
 20
-62.6437993234
 10
521.8090079854
 20
-65.4694068898
 10
523.9556896155
 20
-68.4103343207
 10
525.9991509166
 20
-71.4534467201
 10
527.9302652947
 20
-74.5851528094
 10
529.7404079241
 20
-77.791465629
 10
531.4214942684
 20
-81.0580650074
 10
532.966016188
 20
-84.3703615188
 10
534.3670754729
 20
-87.713561643
 10
535.6184146523
 20
-91.0727338366
 10
536.7144449416
 20
-94.4328752211
 10
537.6502712036
 20
-97.7789785895
 10
538.421713811
 20
-101.0960994318
 10
539.0253273137
 20
-104.3694226811
 10
539.4584158274
 20
-107.5843288811
 10
539.7190450737
 20
-110.7264594804
 10
539.806051019
 20
-113.7817809609
 10
539.7190450737
 20
-116.7366475152
 10
539.4584158274
 20
-119.5778619919
 10
539.0253273137
 20
-122.2927348375
 10
538.421713811
 20
-124.8691407708
 10
537.6502712036
 20
-127.2955729375
 10
536.7144449416
 20
-129.5611943025
 10
535.6184146523
 20
-131.6558860508
 10
534.3670754729
 20
-133.5702927806
 10
532.966016188
 20
-135.2958642866
 10
531.4214942684
 20
-136.8248937476
 10
529.7404079241
 20
-138.1505521469
 10
527.9302652947
 20
-139.2669187723
 10
525.9991509166
 20
-140.1690076594
 10
523.9556896155
 20
-140.8527898603
 10
521.8090079854
 20
-141.3152114376
 10
519.5686936278
 20
-141.5542071044
 10
517.2447523304
 20
-141.5687094479
 10
514.8475633791
 20
-141.3586536972
 10
512.3878332018
 20
-140.9249780123
 10
509.8765475505
 20
-140.269619294
 10
507.3249224366
 20
-139.3955045335
 10
504.7443540372
 20
-138.3065377394
 10
502.1463677972
 20
-137.007582502
 10
499.542566954
 20
-135.5044402704
 10
496.9445807141
 20
-133.803824443
 10
494.3640123147
 20
-131.9133303827
 10
491.8123872008
 20
-129.8414014949
 10
489.3011015495
 20
-127.5972915172
 10
486.8413713721
 20
-125.1910231893
 10
484.4441824209
 20
-122.6333434897
 10
482.1202411234
 20
-119.935675637
 10
479.8799267658
 20
-117.1100680705
 10
477.7332451358
 20
-114.1691406396
 10
475.6897838346
 20
-111.1260282402
 10
473.7586694565
 20
-107.9943221509
 10
471.9485268271
 20
-104.7880093313
 10
470.2674404828
 20
-101.521409953
 10
468.7229185633
 20
-98.2091134415
 10
467.3218592784
 20
-94.8659133174
 10
466.070520099
 20
-91.5067411238
 10
464.9744898096
 20
-88.1465997392
 10
464.0386635476
 20
-84.8004963709
 10
463.2672209403
 20
-81.4833755286
 10
462.6636074375
 20
-78.2100522793
 10
462.2305189238
 20
-74.9951460792
 10
461.9698896776
 20
-71.8530154799
 10
461.8828837322
 20
-68.7976939995
  0
LWPOLYLINE
  5
E6
330
1F
100
AcDbEntity
  8
0
  6
Continuous
 62
     7
370
    25
100
AcDbPolyline
 90
      101
 70
   128
 43
0.0
 10
334.3208204062
 20
-277.6578461146
 10
337.1830026476
 20
-276.1062306593
 10
340.208303377
 20
-274.6614259036
 10
343.3847831146
 20
-273.329133832
 10
346.699905746
 20
-272.1146123925
 10
350.1405879966
 20
-271.0226547464
 10
353.6932510657
 20
-270.0575703518
 10
357.343874215
 20
-269.2231679556
 10
361.0780501029
 20
-268.5227405632
 10
364.8810416431
 20
-267.9590524412
 10
368.7378401653
 20
-267.5343282093
 10
372.6332246479
 20
-267.25024406
 10
376.551821788
 20
-267.1079211436
 10
380.4781666727
 20
-267.1079211436
 10
384.3967638128
 20
-267.25024406
 10
388.2921482954
 20
-267.5343282093
 10
392.1489468176
 20
-267.9590524412
 10
395.9519383578
 20
-268.5227405632
 10
399.6861142457
 20
-269.2231679556
 10
403.336737395
 20
-270.0575703518
 10
406.8894004641
 20
-271.0226547464
 10
410.3300827147
 20
-272.1146123925
 10
413.6452053461
 20
-273.329133832
 10
416.8216850837
 20
-274.6614259036
 10
419.8469858131
 20
-276.1062306593
 10
422.7091680545
 20
-277.6578461146
 10
425.3969360823
 20
-279.3101487523
 10
427.8996825038
 20
-281.0566176888
 10
430.2075301225
 20
-282.890360409
 10
432.3113709181
 20
-284.8041399681
 10
434.2029019921
 20
-286.7904035526
 10
435.8746583356
 20
-288.8413122876
 10
437.32004229
 20
-290.9487721731
 10
438.5333495852
 20
-293.104466028
 10
439.5097918515
 20
-295.2998863133
 10
440.2455155175
 20
-297.5263687082
 10
440.737617018
 20
-299.7751263038
 10
440.9841542532
 20
-302.0372842814
 10
440.9841542532
 20
-304.3039149368
 10
440.737617018
 20
-306.5660729143
 10
440.2455155175
 20
-308.81483051
 10
439.5097918515
 20
-311.0413129049
 10
438.5333495852
 20
-313.2367331902
 10
437.32004229
 20
-315.392427045
 10
435.8746583356
 20
-317.4998869306
 10
434.2029019921
 20
-319.5507956655
 10
432.3113709181
 20
-321.53705925
 10
430.2075301225
 20
-323.4508388092
 10
427.8996825038
 20
-325.2845815293
 10
425.3969360823
 20
-327.0310504658
 10
422.7091680545
 20
-328.6833531035
 10
419.8469858131
 20
-330.2349685589
 10
416.8216850837
 20
-331.6797733145
 10
413.6452053461
 20
-333.0120653862
 10
410.3300827147
 20
-334.2265868256
 10
406.8894004641
 20
-335.3185444717
 10
403.336737395
 20
-336.2836288664
 10
399.6861142457
 20
-337.1180312625
 10
395.9519383578
 20
-337.818458655
 10
392.1489468176
 20
-338.3821467769
 10
388.2921482954
 20
-338.8068710088
 10
384.3967638128
 20
-339.0909551581
 10
380.4781666727
 20
-339.2332780746
 10
376.551821788
 20
-339.2332780746
 10
372.6332246479
 20
-339.0909551581
 10
368.7378401653
 20
-338.8068710088
 10
364.8810416431
 20
-338.3821467769
 10
361.0780501029
 20
-337.818458655
 10
357.343874215
 20
-337.1180312625
 10
353.6932510657
 20
-336.2836288664
 10
350.1405879966
 20
-335.3185444717
 10
346.699905746
 20
-334.2265868256
 10
343.3847831146
 20
-333.0120653862
 10
340.208303377
 20
-331.6797733145
 10
337.1830026476
 20
-330.2349685589
 10
334.3208204062
 20
-328.6833531035
 10
331.6330523784
 20
-327.0310504658
 10
329.1303059569
 20
-325.2845815293
 10
326.8224583382
 20
-323.4508388092
 10
324.7186175426
 20
-321.53705925
 10
322.8270864686
 20
-319.5507956655
 10
321.1553301251
 20
-317.4998869306
 10
319.7099461707
 20
-315.392427045
 10
318.4966388755
 20
-313.2367331902
 10
317.5201966092
 20
-311.0413129049
 10
316.7844729432
 20
-308.81483051
 10
316.2923714427
 20
-306.5660729143
 10
316.0458342075
 20
-304.3039149368
 10
316.0458342075
 20
-302.0372842814
 10
316.2923714427
 20
-299.7751263038
 10
316.7844729432
 20
-297.5263687082
 10
317.5201966092
 20
-295.2998863133
 10
318.4966388755
 20
-293.104466028
 10
319.7099461707
 20
-290.9487721731
 10
321.1553301251
 20
-288.8413122876
 10
322.8270864686
 20
-286.7904035526
 10
324.7186175426
 20
-284.8041399681
 10
326.8224583382
 20
-282.890360409
 10
329.1303059569
 20
-281.0566176888
 10
331.6330523784
 20
-279.3101487523
 10
334.3208204062
 20
-277.6578461146
  0
LWPOLYLINE
  5
E7
330
1F
100
AcDbEntity
  8
0
  6
Continuous
 62
     7
370
    25
100
AcDbPolyline
 90
       95
 70
   128
 43
0.0
 10
339.553410587
 20
-280.6785561284
 10
337.0380697459
 20
-282.2310864138
 10
334.7079749182
 20
-283.8771376484
 10
332.573532873
 20
-285.6093581677
 10
330.6442765468
 20
-287.4200114542
 10
328.9288224665
 20
-289.301010691
 10
327.4348322666
 20
-291.2439548788
 10
326.1689784699
 20
-293.2401663572
 10
325.1369146867
 20
-295.2807295611
 10
324.3432503645
 20
-297.35653084
 10
323.7915302008
 20
-299.4582991614
 10
323.4842183118
 20
-301.5766475178
 10
323.422687227
 20
-303.7021148511
 10
323.6072117591
 20
-305.8252083083
 10
324.0369677768
 20
-307.9364456387
 10
324.7100358854
 20
-310.0263975438
 10
325.6234099993
 20
-312.085729791
 10
326.773010768
 20
-314.1052449027
 10
328.1537037954
 20
-316.075923234
 10
329.7593225713
 20
-317.9889632572
 10
331.5826960124
 20
-319.8358208712
 10
333.6156804903
 20
-321.6082475614
 10
335.8491962029
 20
-323.2983272401
 10
338.2732677268
 20
-324.8985116012
 10
340.87706857
 20
-326.4016538327
 10
343.648969526
 20
-327.8010405366
 10
346.5765906122
 20
-329.0904217123
 10
349.6468563621
 20
-330.2640386702
 10
352.8460542236
 20
-331.3166497523
 10
356.1598958024
 20
-332.2435537419
 10
359.5735806775
 20
-333.0406108608
 10
363.0718625037
 20
-333.7042612584
 10
366.639117105
 20
-334.2315409109
 10
370.2594122565
 20
-334.6200948594
 10
373.9165788411
 20
-334.8681877276
 10
377.5942830652
 20
-334.9747114725
 10
381.2760994088
 20
-334.9391903334
 10
384.9455839865
 20
-334.7617829561
 10
388.5863479892
 20
-334.4432816851
 10
392.1821308812
 20
-333.9851090243
 10
395.7168730231
 20
-333.3893112842
 10
399.1747873986
 20
-332.6585494421
 10
402.5404301225
 20
-331.7960872577
 10
405.7987694175
 20
-330.8057766965
 10
408.9352527492
 20
-329.6920407259
 10
411.9358718218
 20
-328.4598535611
 10
414.787225142
 20
-327.1147184491
 10
417.4765778737
 20
-325.6626430898
 10
419.9919187148
 20
-324.1101128043
 10
422.3220135425
 20
-322.4640615697
 10
424.4564555877
 20
-320.7318410505
 10
426.3857119139
 20
-318.9211877639
 10
428.1011659942
 20
-317.0401885271
 10
429.5951561941
 20
-315.0972443393
 10
430.8610099908
 20
-313.1010328609
 10
431.893073774
 20
-311.060469657
 10
432.6867380962
 20
-308.9846683781
 10
433.2384582599
 20
-306.8829000567
 10
433.5457701489
 20
-304.7645517004
 10
433.6073012337
 20
-302.639084367
 10
433.4227767016
 20
-300.5159909098
 10
432.9930206839
 20
-298.4047535794
 10
432.3199525753
 20
-296.3148016744
 10
431.4065784614
 20
-294.2554694271
 10
430.2569776927
 20
-292.2359543155
 10
428.8762846653
 20
-290.2652759841
 10
427.2706658894
 20
-288.3522359609
 10
425.4472924483
 20
-286.5053783469
 10
423.4143079704
 20
-284.7329516567
 10
421.1807922578
 20
-283.042871978
 10
418.7567207339
 20
-281.442687617
 10
416.1529198907
 20
-279.9395453854
 10
413.3810189347
 20
-278.5401586815
 10
410.4533978485
 20
-277.2507775059
 10
407.3831320986
 20
-276.0771605479
 10
404.1839342371
 20
-275.0245494658
 10
400.8700926583
 20
-274.0976454762
 10
397.4564077832
 20
-273.3005883573
 10
393.958125957
 20
-272.6369379597
 10
390.3908713557
 20
-272.1096583072
 10
386.7705762042
 20
-271.7211043588
 10
383.1134096196
 20
-271.4730114906
 10
379.4357053955
 20
-271.3664877456
 10
375.7538890519
 20
-271.4020088848
 10
372.0844044742
 20
-271.5794162621
 10
368.4436404715
 20
-271.8979175331
 10
364.8478575795
 20
-272.3560901938
 10
361.3131154376
 20
-272.9518879339
 10
357.8552010621
 20
-273.682649776
 10
354.4895583382
 20
-274.5451119604
 10
351.2312190432
 20
-275.5354225216
 10
348.0947357115
 20
-276.6491584922
 10
345.0941166389
 20
-277.8813456571
 10
342.2427633187
 20
-279.2264807691
 10
339.553410587
 20
-280.6785561284
  0
LWPOLYLINE
  5
E8
330
1F
100
AcDbEntity
  8
0
  6
Continuous
 62
     1
370
    25
100
AcDbPolyline
 90
       14
 70
   128
 43
0.0
 10
422.7091680545
 20
-187.4300864012
 10
425.4841431891
 20
-188.9313418996
 10
428.2481667646
 20
-190.2252655319
 10
430.9903304427
 20
-191.3067507728
 10
433.6998121562
 20
-192.1715294941
 10
436.3659188185
 20
-192.8161888093
 10
438.9781285248
 20
-193.2381845425
 10
441.5261320767
 20
-193.4358512694
 10
443.9998736682
 20
-193.4084088898
 10
446.3895905715
 20
-193.1559657061
 10
448.6858516656
 20
-192.6795179963
 10
450.8795946572
 20
-191.9809460818
 10
452.9621618447
 20
-191.0630069069
 10
453.9566284494
 20
-190.5243395572
  0
LWPOLYLINE
  5
E9
330
1F
100
AcDbEntity
  8
0
  6
Continuous
 62
     1
370
    25
100
AcDbPolyline
 90
       39
 70
   128
 43
0.0
 10
391.4617076596
 20
-82.2682317596
 10
390.4930018219
 20
-82.8632481587
 10
388.6569718695
 20
-84.2082023497
 10
386.9553303784
 20
-85.759119063
 10
385.3947929503
 20
-87.5098775389
 10
383.9815183134
 20
-89.4535683336
 10
382.721084017
 20
-91.5825205875
 10
381.6184644195
 20
-93.8883322987
 10
380.6780110568
 20
-96.3619034817
 10
379.9034354684
 20
-98.9934720813
 10
379.2977945506
 20
-101.7726524983
 10
378.8634784911
 20
-104.6884765773
 10
378.6022013372
 20
-107.7294368929
 10
378.5149942304
 20
-110.8835321639
 10
378.6022013372
 20
-114.1383146173
 10
378.8634784911
 20
-117.4809391137
 10
379.2977945506
 20
-120.8982138413
 10
379.9034354684
 20
-124.3766523779
 10
380.6780110568
 20
-127.9025269159
 10
381.6184644195
 20
-131.4619224392
 10
382.721084017
 20
-135.0407916399
 10
383.9815183134
 20
-138.6250103561
 10
385.3947929503
 20
-142.2004333142
 10
386.9553303784
 20
-145.7529499531
 10
388.6569718695
 20
-149.2685401128
 10
390.4930018219
 20
-152.7333293648
 10
392.4561742643
 20
-156.1336437691
 10
394.5387414519
 20
-159.456063838
 10
396.7324844434
 20
-162.6874774975
 10
399.0287455376
 20
-165.815131834
 10
401.4184624408
 20
-168.826683425
 10
403.8922040324
 20
-171.7102470519
 10
406.4402075842
 20
-174.4544426067
 10
409.0524172905
 20
-177.0484400031
 10
411.7185239528
 20
-179.4820019185
 10
414.4280056663
 20
-181.7455241958
 10
417.1701693444
 20
-183.8300737467
 10
419.9341929199
 20
-185.7274238065
 10
422.7091680545
 20
-187.4300864012
  0
LWPOLYLINE
  5
EA
330
1F
100
AcDbEntity
  8
0
  6
Continuous
 62
     1
370
    25
100
AcDbPolyline
 90
       14
 70
   128
 43
0.0
 10
422.7091680545
 20
-187.4300864012
 10
425.3969360823
 20
-189.082389039
 10
427.8996825038
 20
-190.8288579754
 10
430.2075301225
 20
-192.6626006956
 10
432.3113709181
 20
-194.5763802547
 10
434.2029019921
 20
-196.5626438392
 10
435.8746583356
 20
-198.6135525742
 10
437.32004229
 20
-200.7210124598
 10
438.5333495852
 20
-202.8767063146
 10
439.5097918515
 20
-205.0721265999
 10
440.2455155175
 20
-207.2986089948
 10
440.737617018
 20
-209.5473665904
 10
440.9841542532
 20
-211.809524568
 10
441.0149942304
 20
-212.9428398957
  0
LWPOLYLINE
  5
EB
330
1F
100
AcDbEntity
  8
0
  6
Continuous
 62
     1
370
    25
100
AcDbPolyline
 90
       39
 70
   128
 43
0.0
 10
316.0149942304
 20
-212.9428398957
 10
316.0458342075
 20
-211.809524568
 10
316.2923714427
 20
-209.5473665904
 10
316.7844729432
 20
-207.2986089948
 10
317.5201966092
 20
-205.0721265999
 10
318.4966388755
 20
-202.8767063146
 10
319.7099461707
 20
-200.7210124598
 10
321.1553301251
 20
-198.6135525742
 10
322.8270864686
 20
-196.5626438392
 10
324.7186175426
 20
-194.5763802547
 10
326.8224583382
 20
-192.6626006956
 10
329.1303059569
 20
-190.8288579754
 10
331.6330523784
 20
-189.082389039
 10
334.3208204062
 20
-187.4300864012
 10
337.1830026476
 20
-185.8784709459
 10
340.208303377
 20
-184.4336661902
 10
343.3847831146
 20
-183.1013741186
 10
346.699905746
 20
-181.8868526791
 10
350.1405879966
 20
-180.7948950331
 10
353.6932510657
 20
-179.8298106384
 10
357.343874215
 20
-178.9954082423
 10
361.0780501029
 20
-178.2949808498
 10
364.8810416431
 20
-177.7312927278
 10
368.7378401653
 20
-177.306568496
 10
372.6332246479
 20
-177.0224843466
 10
376.551821788
 20
-176.8801614302
 10
380.4781666727
 20
-176.8801614302
 10
384.3967638128
 20
-177.0224843466
 10
388.2921482954
 20
-177.306568496
 10
392.1489468176
 20
-177.7312927278
 10
395.9519383578
 20
-178.2949808498
 10
399.6861142457
 20
-178.9954082423
 10
403.336737395
 20
-179.8298106384
 10
406.8894004641
 20
-180.7948950331
 10
410.3300827147
 20
-181.8868526791
 10
413.6452053461
 20
-183.1013741186
 10
416.8216850837
 20
-184.4336661902
 10
419.8469858131
 20
-185.8784709459
 10
422.7091680545
 20
-187.4300864012
  0
ENDSEC
  0
SECTION
  2
OBJECTS
  0
DICTIONARY
  5
C
330
0
100
AcDbDictionary
281
     1
  3
ACAD_GROUP
350
D
  3
ACAD_LAYOUT
350
1A
  3
ACAD_MLINESTYLE
350
17
  3
ACAD_PLOTSETTINGS
350
19
  3
ACAD_PLOTSTYLENAME
350
E
  3
ACAD_SCALELIST
350
47
  3
DWGPROPS
350
EC
  0
DICTIONARY
  5
D
102
{ACAD_REACTORS
330
C
102
}
330
C
100
AcDbDictionary
281
     1
  0
DICTIONARY
  5
1A
102
{ACAD_REACTORS
330
C
102
}
330
C
100
AcDbDictionary
281
     1
  3
Layout1
350
1E
  3
Layout2
350
26
  3
Model
350
22
  0
DICTIONARY
  5
17
102
{ACAD_REACTORS
330
C
102
}
330
C
100
AcDbDictionary
281
     1
  3
Standard
350
18
  0
DICTIONARY
  5
19
102
{ACAD_REACTORS
330
C
102
}
330
C
100
AcDbDictionary
281
     1
  0
ACDBDICTIONARYWDFLT
  5
E
102
{ACAD_REACTORS
330
C
102
}
330
C
100
AcDbDictionary
281
     1
  3
Normal
350
F
100
AcDbDictionaryWithDefault
340
F
  0
DICTIONARY
  5
47
102
{ACAD_REACTORS
330
C
102
}
330
C
100
AcDbDictionary
281
     1
  3
A0
350
48
  3
A1
350
49
  3
A2
350
4A
  3
A3
350
4B
  3
A4
350
4C
  3
A5
350
4D
  3
A6
350
4E
  3
A7
350
4F
  3
A8
350
50
  3
A9
350
51
  3
B0
350
52
  3
B1
350
53
  3
B2
350
54
  3
B3
350
55
  3
B4
350
56
  3
B5
350
57
  3
B6
350
58
  3
B7
350
59
  3
B8
350
5A
  3
B9
350
5B
  3
C0
350
5C
  3
C1
350
5D
  3
C2
350
5E
  3
C3
350
5F
  3
C4
350
60
  3
C5
350
61
  3
C6
350
62
  3
C7
350
63
  3
C8
350
64
  3
C9
350
65
  3
D0
350
66
  3
D1
350
67
  3
D2
350
68
  0
XRECORD
  5
EC
102
{ACAD_REACTORS
330
C
102
}
330
C
100
AcDbXrecord
280
     1
  1
DWGPROPS COOKIE
  2

  3

  4

  6

  7

  8
b.kav
  9

300
=
301
=
302
=
303
=
304
=
305
=
306
=
307
=
308
=
309
=
 40
0.0
 41
2459935.574844386
 42
2459935.574844572
  1

 90
        0
  0
LAYOUT
  5
1E
102
{ACAD_REACTORS
330
1A
102
}
330
1A
100
AcDbPlotSettings
  1

  2
none_device
  4

  6

 40
0.0
 41
0.0
 42
0.0
 43
0.0
 44
0.0
 45
0.0
 46
0.0
 47
0.0
 48
0.0
 49
0.0
140
0.0
141
0.0
142
1.0
143
1.0
 70
   688
 72
     1
 73
     0
 74
     5
  7

 75
    16
147
1.0
148
0.0
149
0.0
100
AcDbLayout
  1
Layout1
 70
     1
 71
     1
 10
0.0
 20
0.0
 11
420.0
 21
297.0
 12
0.0
 22
0.0
 32
0.0
 14
1.0000000000E+20
 24
1.0000000000E+20
 34
1.0000000000E+20
 15
-1.0000000000E+20
 25
-1.0000000000E+20
 35
-1.0000000000E+20
146
0.0
 13
0.0
 23
0.0
 33
0.0
 16
1.0
 26
0.0
 36
0.0
 17
0.0
 27
1.0
 37
0.0
 76
     0
330
1B
  0
LAYOUT
  5
26
102
{ACAD_REACTORS
330
1A
102
}
330
1A
100
AcDbPlotSettings
  1

  2
none_device
  4

  6

 40
0.0
 41
0.0
 42
0.0
 43
0.0
 44
0.0
 45
0.0
 46
0.0
 47
0.0
 48
0.0
 49
0.0
140
0.0
141
0.0
142
1.0
143
1.0
 70
   688
 72
     1
 73
     0
 74
     5
  7

 75
    16
147
1.0
148
0.0
149
0.0
100
AcDbLayout
  1
Layout2
 70
     1
 71
     2
 10
0.0
 20
0.0
 11
0.0
 21
0.0
 12
0.0
 22
0.0
 32
0.0
 14
0.0
 24
0.0
 34
0.0
 15
0.0
 25
0.0
 35
0.0
146
0.0
 13
0.0
 23
0.0
 33
0.0
 16
1.0
 26
0.0
 36
0.0
 17
0.0
 27
1.0
 37
0.0
 76
     0
330
23
  0
LAYOUT
  5
22
102
{ACAD_REACTORS
330
1A
102
}
330
1A
100
AcDbPlotSettings
  1

  2
none_device
  4
Letter_(8.50_x_11.00_Inches)
  6

 40
6.35
 41
6.35
 42
6.35000508
 43
6.35000508
 44
215.9
 45
279.4
 46
0.0
 47
0.0
 48
0.0
 49
0.0
140
0.0
141
0.0
142
1.0
143
1.0
 70
  1712
 72
     1
 73
     0
 74
     0
  7

 75
     0
147
1.0
148
0.0
149
0.0
100
AcDbLayout
  1
Model
 70
     1
 71
     0
 10
0.0
 20
0.0
 11
279.4
 21
215.9
 12
0.0
 22
0.0
 32
0.0
 14
0.0
 24
0.0
 34
0.0
 15
279.4
 25
215.9
 35
0.0
146
0.0
 13
0.0
 23
0.0
 33
0.0
 16
1.0
 26
0.0
 36
0.0
 17
0.0
 27
1.0
 37
0.0
 76
     0
330
1F
331
29
  0
MLINESTYLE
  5
18
102
{ACAD_REACTORS
330
17
102
}
330
17
100
AcDbMlineStyle
  2
Standard
 70
     0
  3

 62
   256
 51
90.0
 52
90.0
 71
     2
 49
0.5
 62
   256
  6
BYLAYER
 49
-0.5
 62
   256
  6
BYLAYER
  0
ACDBPLACEHOLDER
  5
F
102
{ACAD_REACTORS
330
E
102
}
330
E
  0
SCALE
  5
48
102
{ACAD_REACTORS
330
47
102
}
330
47
100
AcDbScale
 70
     0
300
1:1
140
1.0
141
1.0
290
     1
  0
SCALE
  5
49
102
{ACAD_REACTORS
330
47
102
}
330
47
100
AcDbScale
 70
     0
300
1:2
140
1.0
141
2.0
290
     0
  0
SCALE
  5
4A
102
{ACAD_REACTORS
330
47
102
}
330
47
100
AcDbScale
 70
     0
300
1:4
140
1.0
141
4.0
290
     0
  0
SCALE
  5
4B
102
{ACAD_REACTORS
330
47
102
}
330
47
100
AcDbScale
 70
     0
300
1:5
140
1.0
141
5.0
290
     0
  0
SCALE
  5
4C
102
{ACAD_REACTORS
330
47
102
}
330
47
100
AcDbScale
 70
     0
300
1:8
140
1.0
141
8.0
290
     0
  0
SCALE
  5
4D
102
{ACAD_REACTORS
330
47
102
}
330
47
100
AcDbScale
 70
     0
300
1:10
140
1.0
141
10.0
290
     0
  0
SCALE
  5
4E
102
{ACAD_REACTORS
330
47
102
}
330
47
100
AcDbScale
 70
     0
300
1:16
140
1.0
141
16.0
290
     0
  0
SCALE
  5
4F
102
{ACAD_REACTORS
330
47
102
}
330
47
100
AcDbScale
 70
     0
300
1:20
140
1.0
141
20.0
290
     0
  0
SCALE
  5
50
102
{ACAD_REACTORS
330
47
102
}
330
47
100
AcDbScale
 70
     0
300
1:30
140
1.0
141
30.0
290
     0
  0
SCALE
  5
51
102
{ACAD_REACTORS
330
47
102
}
330
47
100
AcDbScale
 70
     0
300
1:40
140
1.0
141
40.0
290
     0
  0
SCALE
  5
52
102
{ACAD_REACTORS
330
47
102
}
330
47
100
AcDbScale
 70
     0
300
1:50
140
1.0
141
50.0
290
     0
  0
SCALE
  5
53
102
{ACAD_REACTORS
330
47
102
}
330
47
100
AcDbScale
 70
     0
300
1:100
140
1.0
141
100.0
290
     0
  0
SCALE
  5
54
102
{ACAD_REACTORS
330
47
102
}
330
47
100
AcDbScale
 70
     0
300
2:1
140
2.0
141
1.0
290
     0
  0
SCALE
  5
55
102
{ACAD_REACTORS
330
47
102
}
330
47
100
AcDbScale
 70
     0
300
4:1
140
4.0
141
1.0
290
     0
  0
SCALE
  5
56
102
{ACAD_REACTORS
330
47
102
}
330
47
100
AcDbScale
 70
     0
300
8:1
140
8.0
141
1.0
290
     0
  0
SCALE
  5
57
102
{ACAD_REACTORS
330
47
102
}
330
47
100
AcDbScale
 70
     0
300
10:1
140
10.0
141
1.0
290
     0
  0
SCALE
  5
58
102
{ACAD_REACTORS
330
47
102
}
330
47
100
AcDbScale
 70
     0
300
100:1
140
100.0
141
1.0
290
     0
  0
SCALE
  5
59
102
{ACAD_REACTORS
330
47
102
}
330
47
100
AcDbScale
 70
     0
300
1/128" = 1'-0"
140
0.0078125
141
12.0
290
     0
  0
SCALE
  5
5A
102
{ACAD_REACTORS
330
47
102
}
330
47
100
AcDbScale
 70
     0
300
1/64" = 1'-0"
140
0.015625
141
12.0
290
     0
  0
SCALE
  5
5B
102
{ACAD_REACTORS
330
47
102
}
330
47
100
AcDbScale
 70
     0
300
1/32" = 1'-0"
140
0.03125
141
12.0
290
     0
  0
SCALE
  5
5C
102
{ACAD_REACTORS
330
47
102
}
330
47
100
AcDbScale
 70
     0
300
1/16" = 1'-0"
140
0.0625
141
12.0
290
     0
  0
SCALE
  5
5D
102
{ACAD_REACTORS
330
47
102
}
330
47
100
AcDbScale
 70
     0
300
3/32" = 1'-0"
140
0.09375
141
12.0
290
     0
  0
SCALE
  5
5E
102
{ACAD_REACTORS
330
47
102
}
330
47
100
AcDbScale
 70
     0
300
1/8" = 1'-0"
140
0.125
141
12.0
290
     0
  0
SCALE
  5
5F
102
{ACAD_REACTORS
330
47
102
}
330
47
100
AcDbScale
 70
     0
300
3/16" = 1'-0"
140
0.1875
141
12.0
290
     0
  0
SCALE
  5
60
102
{ACAD_REACTORS
330
47
102
}
330
47
100
AcDbScale
 70
     0
300
1/4" = 1'-0"
140
0.25
141
12.0
290
     0
  0
SCALE
  5
61
102
{ACAD_REACTORS
330
47
102
}
330
47
100
AcDbScale
 70
     0
300
3/8" = 1'-0"
140
0.375
141
12.0
290
     0
  0
SCALE
  5
62
102
{ACAD_REACTORS
330
47
102
}
330
47
100
AcDbScale
 70
     0
300
1/2" = 1'-0"
140
0.5
141
12.0
290
     0
  0
SCALE
  5
63
102
{ACAD_REACTORS
330
47
102
}
330
47
100
AcDbScale
 70
     0
300
3/4" = 1'-0"
140
0.75
141
12.0
290
     0
  0
SCALE
  5
64
102
{ACAD_REACTORS
330
47
102
}
330
47
100
AcDbScale
 70
     0
300
1" = 1'-0"
140
1.0
141
12.0
290
     0
  0
SCALE
  5
65
102
{ACAD_REACTORS
330
47
102
}
330
47
100
AcDbScale
 70
     0
300
1-1/2" = 1'-0"
140
1.5
141
12.0
290
     0
  0
SCALE
  5
66
102
{ACAD_REACTORS
330
47
102
}
330
47
100
AcDbScale
 70
     0
300
3" = 1'-0"
140
3.0
141
12.0
290
     0
  0
SCALE
  5
67
102
{ACAD_REACTORS
330
47
102
}
330
47
100
AcDbScale
 70
     0
300
6" = 1'-0"
140
6.0
141
12.0
290
     0
  0
SCALE
  5
68
102
{ACAD_REACTORS
330
47
102
}
330
47
100
AcDbScale
 70
     0
300
1'-0" = 1'-0"
140
12.0
141
12.0
290
     0
  0
ENDSEC
  0
EOF
